Më mbaj mend (për 1 muaj)

Hyrja është kryer me sukses!

Official Video

7Me7 - Keq  Lyrics


Nuk ka akoma asnjë votë


Komente nga Fansat

Asnjë Koment 🔥🔥

18/04/2008

2008-04-18T08:47:24



Gervishi koken me doren time
ne mure nuk mund te hysh
zogjet vdesin duke kenduar
po mos ti zeme ne prit
ideal nuk ka njeri
veq qellime ideale
as breket nuk i kam vesh
sa e shkurt eshte kjo jete

Vetem ti me thuaj
se a kam shpirt e cka kam ndore
vetem ty te dua
te dua me shume se gjithmone

Asgje ty nuk te premtoj
me ty do te jem gjithmon
te dalim njehere nga kjo dere
ta shajme pastaj si gjithehere





Akordet:

C / G# / F / E

Pjesa kryesore
e|------------------------------------------------------------------
B|------------------------------------------------------------------
G|------------------------------------------------------------------
D|---10--10-----6--6--6------3--2--2--3--2--3------------------
A|---10--10-----6--6--6------3--3--2--3--2--3------------------
E|---8---8-------4--4--4------1--1--0--1--0--1------------------

Intro
e|------------------------------------------------------------------
B|----9--8--7--8--------------------------9--8--7--8--------------
G|-----------------8--5--5--4--5--4--5-----------------------------
D|------------------------------------------------------------------
A|------------------------------------------------------------------
E|------------------------------------------------------------------

e|------8-----8------8------8---------------------------11-10----
B|---8----8------8------8------8----9--8--7--8---8--------------
G|------------------------------------------------------------------
D|------------------------------------------------------------------
A|------------------------------------------------------------------
E|------------------------------------------------------------------

e|----10-----10------10-------8----------------------------------
B|-8------8-------8--------8-------9--8--7--8--------------------
G|-------------------------------------------------8--5--5--4--5---5--5--4--5
D|------------------------------------------------------------------
A|------------------------------------------------------------------
E|------------------------------------------------------------------

Nga mesi kenges osht ni pjese me gitare (perseritet)
e|------------------------------------------------------------------
B|-------7--8------7--8--------7--8-------7--8-------------------
G|---5----------5----------5------------5----------5--5----------
D|------------------------------------------------------------------
A|------------------------------------------------------------------
E|------------------------------------------------------------------


Më Shumë Këngë Nga 7me7:


Komente mbi këtë këngë


* Të regjistruarit mund të votojnë ose të sinjalizojnë komentet